ISO-10303-21;
HEADER;
FILE_DESCRIPTION (( 'STEP AP203' ),
    '1' );
FILE_NAME ('End Cap SDR11_001 117 0140 0020.step',
    '2019-12-16T11:41:06',
    ( '' ),
    ( '' ),
    'SwSTEP 2.0',
    'SolidWorks 2019',
    '' );
FILE_SCHEMA (( 'CONFIG_CONTROL_DESIGN' ));
ENDSEC;

DATA;
#1 = CC_DESIGN_SECURITY_CLASSIFICATION ( #55, ( #282 ) ) ;
#2 = ORIENTED_EDGE ( 'NONE', *, *, #138, .T. ) ;
#3 = APPROVAL_ROLE ( '' ) ;
#4 = CIRCLE ( 'NONE', #175, 9.999999999999991118 ) ;
#5 = APPROVAL_ROLE ( '' ) ;
#6 = CALENDAR_DATE ( 2019, 16, 12 ) ;
#7 = TOROIDAL_SURFACE ( 'NONE', #140, -3.488929650168181240, 27.02260918188020966 ) ;
#8 = ADVANCED_FACE ( 'NONE', ( #295 ), #100, .T. ) ;
#9 = DIRECTION ( 'NONE',  ( -0.0000000000000000000, -1.000000000000000000, -0.0000000000000000000 ) ) ;
#10 = CARTESIAN_POINT ( 'NONE',  ( 0.0000000000000000000, 16.09610950492956505, 0.0000000000000000000 ) ) ;
#11 = LOCAL_TIME ( 14, 41, 6.000000000000000000, #101 ) ;
#12 = DIRECTION ( 'NONE',  ( -0.0000000000000000000, -1.000000000000000000, -0.0000000000000000000 ) ) ;
#13 = ORIENTED_EDGE ( 'NONE', *, *, #224, .T. ) ;
#14 = ORIENTED_EDGE ( 'NONE', *, *, #30, .F. ) ;
#15 = DIRECTION ( 'NONE',  ( -0.0000000000000000000, -1.000000000000000000, -0.0000000000000000000 ) ) ;
#16 = DESIGN_CONTEXT ( 'detailed design', #290, 'design' ) ;
#17 = EDGE_LOOP ( 'NONE', ( #14, #271 ) ) ;
#18 = EDGE_CURVE ( 'NONE', #298, #60, #4, .T. ) ;
#19 = CARTESIAN_POINT ( 'NONE',  ( 0.0000000000000000000, 0.0000000000000000000, 0.0000000000000000000 ) ) ;
#20 = CARTESIAN_POINT ( 'NONE',  ( 0.0000000000000000000, 0.0000000000000000000, -10.00000000000000178 ) ) ;
#21 =( GEOMETRIC_REPRESENTATION_CONTEXT ( 3 ) GLOBAL_UNCERTAINTY_ASSIGNED_CONTEXT ( ( #145 ) ) GLOBAL_UNIT_ASSIGNED_CONTEXT ( ( #211, #191, #168 ) ) REPRESENTATION_CONTEXT ( 'NONE', 'WORKASPACE' ) );
#22 = PRODUCT_DEFINITION_SHAPE ( 'NONE', 'NONE',  #250 ) ;
#23 = AXIS2_PLACEMENT_3D ( 'NONE', #19, #115, #209 ) ;
#24 = APPLICATION_PROTOCOL_DEFINITION ( 'international standard', 'config_control_design', 1994, #290 ) ;
#25 = DATE_TIME_ROLE ( 'creation_date' ) ;
#26 = CIRCLE ( 'NONE', #163, 30.00000000000000355 ) ;
#27 = PERSON_AND_ORGANIZATION ( #128, #28 ) ;
#28 = ORGANIZATION ( 'BELÝRTÝLMEMÝÞ', 'BELÝRTÝLMEMÝÞ', '' ) ;
#29 = SHAPE_DEFINITION_REPRESENTATION ( #22, #79 ) ;
#30 = EDGE_CURVE ( 'NONE', #253, #154, #43, .T. ) ;
#31 = AXIS2_PLACEMENT_3D ( 'NONE', #200, #297, #86 ) ;
#32 = DIRECTION ( 'NONE',  ( -0.0000000000000000000, -1.000000000000000000, -0.0000000000000000000 ) ) ;
#33 = CARTESIAN_POINT ( 'NONE',  ( 0.0000000000000000000, 42.89254167215686664, 0.0000000000000000000 ) ) ;
#34 = DIRECTION ( 'NONE',  ( -0.0000000000000000000, -1.000000000000000000, -0.0000000000000000000 ) ) ;
#35 = ORIENTED_EDGE ( 'NONE', *, *, #237, .T. ) ;
#36 = ORIENTED_EDGE ( 'NONE', *, *, #87, .T. ) ;
#37 = EDGE_CURVE ( 'NONE', #222, #298, #26, .T. ) ;
#38 = ORIENTED_EDGE ( 'NONE', *, *, #138, .F. ) ;
#39 = CARTESIAN_POINT ( 'NONE',  ( 0.0000000000000000000, 16.09610950492956505, 0.0000000000000000000 ) ) ;
#40 = EDGE_LOOP ( 'NONE', ( #35, #206 ) ) ;
#41 = DIRECTION ( 'NONE',  ( -1.224646799147353207E-16, 0.0000000000000000000, -1.000000000000000000 ) ) ;
#42 = CC_DESIGN_PERSON_AND_ORGANIZATION_ASSIGNMENT ( #27, #121, ( #55 ) ) ;
#43 = CIRCLE ( 'NONE', #216, 7.000000000000002665 ) ;
#44 = CARTESIAN_POINT ( 'NONE',  ( 0.0000000000000000000, 0.0000000000000000000, 0.0000000000000000000 ) ) ;
#45 = CARTESIAN_POINT ( 'NONE',  ( 0.0000000000000000000, 42.89254167215686664, 0.0000000000000000000 ) ) ;
#46 = APPROVAL ( #215, 'BELÝRTÝLMEMÝÞ' ) ;
#47 = CARTESIAN_POINT ( 'NONE',  ( 7.000000000000002665, 0.0000000000000000000, 0.0000000000000000000 ) ) ;
#48 = LINE ( 'NONE', #137, #103 ) ;
#49 = PRODUCT ( 'End Cap SDR11_001 117 0140 0020', 'End Cap SDR11_001 117 0140 0020', '', ( #169 ) ) ;
#50 = AXIS2_PLACEMENT_3D ( 'NONE', #90, #183, #277 ) ;
#51 = EDGE_CURVE ( 'NONE', #60, #298, #292, .T. ) ;
#52 = COORDINATED_UNIVERSAL_TIME_OFFSET ( 3, 0, .AHEAD. ) ;
#53 = PERSON_AND_ORGANIZATION ( #128, #28 ) ;
#54 = CALENDAR_DATE ( 2019, 16, 12 ) ;
#55 = SECURITY_CLASSIFICATION ( '', '', #241 ) ;
#56 = VECTOR ( 'NONE', #32, 1000.000000000000000 ) ;
#57 = CARTESIAN_POINT ( 'NONE',  ( -4.272706528528758434E-16, 16.09610950492956505, -3.488929650168181240 ) ) ;
#58 = DIRECTION ( 'NONE',  ( 0.0000000000000000000, 0.0000000000000000000, 1.000000000000000000 ) ) ;
#59 = FACE_OUTER_BOUND ( 'NONE', #156, .T. ) ;
#60 = VERTEX_POINT ( 'NONE', #81 ) ;
#61 = EDGE_LOOP ( 'NONE', ( #212, #208, #65 ) ) ;
#62 = CIRCLE ( 'NONE', #23, 10.00000000000000178 ) ;
#63 = DIRECTION ( 'NONE',  ( 0.0000000000000000000, 0.0000000000000000000, 1.000000000000000000 ) ) ;
#64 = EDGE_CURVE ( 'NONE', #222, #60, #258, .T. ) ;
#65 = ORIENTED_EDGE ( 'NONE', *, *, #18, .F. ) ;
#66 = FACE_OUTER_BOUND ( 'NONE', #61, .T. ) ;
#67 = ORIENTED_EDGE ( 'NONE', *, *, #214, .T. ) ;
#68 = CARTESIAN_POINT ( 'NONE',  ( -1.257674520083185143E-14, 45.89254167215686664, 0.0000000000000000000 ) ) ;
#69 = FACE_OUTER_BOUND ( 'NONE', #40, .T. ) ;
#70 = DIRECTION ( 'NONE',  ( -0.0000000000000000000, -1.000000000000000000, -0.0000000000000000000 ) ) ;
#71 = LOCAL_TIME ( 14, 41, 6.000000000000000000, #99 ) ;
#72 = DIRECTION ( 'NONE',  ( 1.000000000000000000, 0.0000000000000000000, 0.0000000000000000000 ) ) ;
#73 = AXIS2_PLACEMENT_3D ( 'NONE', #221, #12, #108 ) ;
#74 = EDGE_CURVE ( 'NONE', #60, #278, #152, .T. ) ;
#75 = APPROVAL_DATE_TIME ( #286, #167 ) ;
#76 = APPROVAL_DATE_TIME ( #287, #46 ) ;
#77 = APPROVAL_STATUS ( 'not_yet_approved' ) ;
#78 = AXIS2_PLACEMENT_3D ( 'NONE', #93, #188, #280 ) ;
#79 = ADVANCED_BREP_SHAPE_REPRESENTATION ( 'End Cap SDR11_001 117 0140 0020', ( #82, #165 ), #21 ) ;
#80 = AXIS2_PLACEMENT_3D ( 'NONE', #176, #269, #58 ) ;
#81 = CARTESIAN_POINT ( 'NONE',  ( 0.0000000000000000000, 42.89254167215686664, -9.999999999999991118 ) ) ;
#82 = MANIFOLD_SOLID_BREP ( 'Döndür1', #229 ) ;
#83 = CARTESIAN_POINT ( 'NONE',  ( 0.0000000000000000000, 0.0000000000000000000, 0.0000000000000000000 ) ) ;
#84 = EDGE_LOOP ( 'NONE', ( #109, #38, #36, #132 ) ) ;
#85 = ORIENTED_EDGE ( 'NONE', *, *, #149, .T. ) ;
#86 = DIRECTION ( 'NONE',  ( 0.0000000000000000000, 0.0000000000000000000, -1.000000000000000000 ) ) ;
#87 = EDGE_CURVE ( 'NONE', #160, #253, #124, .T. ) ;
#88 = DIRECTION ( 'NONE',  ( 0.0000000000000000000, 0.0000000000000000000, -1.000000000000000000 ) ) ;
#89 = VERTEX_POINT ( 'NONE', #106 ) ;
#90 = CARTESIAN_POINT ( 'NONE',  ( 0.0000000000000000000, 0.0000000000000000000, 0.0000000000000000000 ) ) ;
#91 = EDGE_LOOP ( 'NONE', ( #139, #112, #251, #98 ) ) ;
#92 = DIRECTION ( 'NONE',  ( 0.0000000000000000000, 0.0000000000000000000, -1.000000000000000000 ) ) ;
#93 = CARTESIAN_POINT ( 'NONE',  ( 0.0000000000000000000, 40.99999999999999289, 0.0000000000000000000 ) ) ;
#94 = DIRECTION ( 'NONE',  ( -0.0000000000000000000, -1.000000000000000000, -0.0000000000000000000 ) ) ;
#95 = APPROVAL_PERSON_ORGANIZATION ( #288, #187, #173 ) ;
#96 = ADVANCED_FACE ( 'NONE', ( #198 ), #294, .T. ) ;
#97 = AXIS2_PLACEMENT_3D ( 'NONE', #281, #70, #166 ) ;
#98 = ORIENTED_EDGE ( 'NONE', *, *, #291, .F. ) ;
#99 = COORDINATED_UNIVERSAL_TIME_OFFSET ( 3, 0, .AHEAD. ) ;
#100 = TOROIDAL_SURFACE ( 'NONE', #134, -3.488929650168181240, 30.00000000000000711 ) ;
#101 = COORDINATED_UNIVERSAL_TIME_OFFSET ( 3, 0, .AHEAD. ) ;
#102 = DATE_AND_TIME ( #6, #223 ) ;
#103 = VECTOR ( 'NONE', #233, 1000.000000000000000 ) ;
#104 = CIRCLE ( 'NONE', #234, 27.02260918188020966 ) ;
#105 = CIRCLE ( 'NONE', #97, 10.00000000000000178 ) ;
#106 = CARTESIAN_POINT ( 'NONE',  ( 1.224646799147353454E-15, 0.0000000000000000000, 10.00000000000000178 ) ) ;
#107 = LOCAL_TIME ( 14, 41, 6.000000000000000000, #52 ) ;
#108 = DIRECTION ( 'NONE',  ( 0.0000000000000000000, 0.0000000000000000000, -1.000000000000000000 ) ) ;
#109 = ORIENTED_EDGE ( 'NONE', *, *, #303, .F. ) ;
#110 = ORIENTED_EDGE ( 'NONE', *, *, #51, .F. ) ;
#111 = DIRECTION ( 'NONE',  ( 0.0000000000000000000, 0.0000000000000000000, -1.000000000000000000 ) ) ;
#112 = ORIENTED_EDGE ( 'NONE', *, *, #18, .T. ) ;
#113 = CIRCLE ( 'NONE', #73, 7.000000000000002665 ) ;
#114 = LINE ( 'NONE', #186, #274 ) ;
#115 = DIRECTION ( 'NONE',  ( -0.0000000000000000000, -1.000000000000000000, -0.0000000000000000000 ) ) ;
#116 = FACE_OUTER_BOUND ( 'NONE', #84, .T. ) ;
#117 = ADVANCED_FACE ( 'NONE', ( #59 ), #153, .F. ) ;
#118 = PERSON_AND_ORGANIZATION ( #128, #28 ) ;
#119 = PERSON_AND_ORGANIZATION ( #128, #28 ) ;
#120 = AXIS2_PLACEMENT_3D ( 'NONE', #45, #148, #257 ) ;
#121 = PERSON_AND_ORGANIZATION_ROLE ( 'classification_officer' ) ;
#122 = TOROIDAL_SURFACE ( 'NONE', #262, -3.488929650168181240, 27.02260918188020966 ) ;
#123 = EDGE_CURVE ( 'NONE', #154, #253, #113, .T. ) ;
#124 = LINE ( 'NONE', #219, #194 ) ;
#125 = DIRECTION ( 'NONE',  ( 0.0000000000000000000, 0.0000000000000000000, -1.000000000000000000 ) ) ;
#126 = DIRECTION ( 'NONE',  ( 0.0000000000000000000, 0.0000000000000000000, -1.000000000000000000 ) ) ;
#127 = EDGE_LOOP ( 'NONE', ( #178, #67, #202, #296 ) ) ;
#128 = PERSON ( 'BELÝRTÝLMEMÝÞ', 'BELÝRTÝLMEMÝÞ', 'BELÝRTÝLMEMÝÞ', ('BELÝRTÝLMEMÝÞ'), ('BELÝRTÝLMEMÝÞ'), ('BELÝRTÝLMEMÝÞ') ) ;
#129 = CC_DESIGN_APPROVAL ( #187, ( #55 ) ) ;
#130 = ORIENTED_EDGE ( 'NONE', *, *, #149, .F. ) ;
#131 = CARTESIAN_POINT ( 'NONE',  ( 0.0000000000000000000, 40.99999999999999289, -6.999999999999995559 ) ) ;
#132 = ORIENTED_EDGE ( 'NONE', *, *, #30, .T. ) ;
#133 = DIRECTION ( 'NONE',  ( -0.0000000000000000000, -1.000000000000000000, -0.0000000000000000000 ) ) ;
#134 = AXIS2_PLACEMENT_3D ( 'NONE', #10, #220, #125 ) ;
#135 = CARTESIAN_POINT ( 'NONE',  ( -7.727477043432469909E-15, 42.89254167215686664, 0.0000000000000000000 ) ) ;
#136 = DIRECTION ( 'NONE',  ( 0.0000000000000000000, -1.000000000000000000, -0.0000000000000000000 ) ) ;
#137 = CARTESIAN_POINT ( 'NONE',  ( 8.572527594031472204E-16, 0.0000000000000000000, 6.999999999999999112 ) ) ;
#138 = EDGE_CURVE ( 'NONE', #160, #227, #205, .T. ) ;
#139 = ORIENTED_EDGE ( 'NONE', *, *, #214, .F. ) ;
#140 = AXIS2_PLACEMENT_3D ( 'NONE', #207, #302, #92 ) ;
#141 = PERSON_AND_ORGANIZATION ( #128, #28 ) ;
#142 = CALENDAR_DATE ( 2019, 16, 12 ) ;
#143 = AXIS2_PLACEMENT_3D ( 'NONE', #47, #136, #231 ) ;
#144 = PERSON_AND_ORGANIZATION_ROLE ( 'design_supplier' ) ;
#145 = UNCERTAINTY_MEASURE_WITH_UNIT (LENGTH_MEASURE( 1.000000000000000082E-05 ), #211, 'distance_accuracy_value', 'NONE');
#146 = DATE_AND_TIME ( #54, #266 ) ;
#147 = APPROVAL_PERSON_ORGANIZATION ( #119, #46, #5 ) ;
#148 = DIRECTION ( 'NONE',  ( -0.0000000000000000000, -1.000000000000000000, -0.0000000000000000000 ) ) ;
#149 = EDGE_CURVE ( 'NONE', #225, #160, #170, .T. ) ;
#150 = DIRECTION ( 'NONE',  ( 1.000000000000000000, 0.0000000000000000000, -1.224646799147353207E-16 ) ) ;
#151 = CC_DESIGN_PERSON_AND_ORGANIZATION_ASSIGNMENT ( #172, #264, ( #282 ) ) ;
#152 = LINE ( 'NONE', #246, #56 ) ;
#153 = CYLINDRICAL_SURFACE ( 'NONE', #244, 6.999999999999999112 ) ;
#154 = VERTEX_POINT ( 'NONE', #157 ) ;
#155 = CIRCLE ( 'NONE', #78, 6.999999999999995559 ) ;
#156 = EDGE_LOOP ( 'NONE', ( #255, #182, #276, #179 ) ) ;
#157 = CARTESIAN_POINT ( 'NONE',  ( 8.572527594031475162E-16, 0.0000000000000000000, 7.000000000000002665 ) ) ;
#158 = EDGE_LOOP ( 'NONE', ( #235, #85, #2 ) ) ;
#159 = ADVANCED_FACE ( 'NONE', ( #252 ), #122, .F. ) ;
#160 = VERTEX_POINT ( 'NONE', #131 ) ;
#161 = CARTESIAN_POINT ( 'NONE',  ( -4.272706528528758434E-16, 16.09610950492956505, -3.488929650168181240 ) ) ;
#162 = DIRECTION ( 'NONE',  ( -0.0000000000000000000, -1.000000000000000000, -0.0000000000000000000 ) ) ;
#163 = AXIS2_PLACEMENT_3D ( 'NONE', #57, #150, #305 ) ;
#164 = FACE_BOUND ( 'NONE', #17, .T. ) ;
#165 = AXIS2_PLACEMENT_3D ( 'NONE', #192, #284, #72 ) ;
#166 = DIRECTION ( 'NONE',  ( 0.0000000000000000000, 0.0000000000000000000, -1.000000000000000000 ) ) ;
#167 = APPROVAL ( #213, 'BELÝRTÝLMEMÝÞ' ) ;
#168 =( NAMED_UNIT ( * ) SI_UNIT ( $, .STERADIAN. ) SOLID_ANGLE_UNIT ( ) );
#169 = MECHANICAL_CONTEXT ( 'NONE', #275, 'mechanical' ) ;
#170 = CIRCLE ( 'NONE', #300, 27.02260918188020966 ) ;
#171 = PERSON_AND_ORGANIZATION ( #128, #28 ) ;
#172 = PERSON_AND_ORGANIZATION ( #128, #28 ) ;
#173 = APPROVAL_ROLE ( '' ) ;
#174 = ADVANCED_FACE ( 'NONE', ( #203 ), #299, .T. ) ;
#175 = AXIS2_PLACEMENT_3D ( 'NONE', #33, #247, #88 ) ;
#176 = CARTESIAN_POINT ( 'NONE',  ( 0.0000000000000000000, 16.09610950492956505, 3.488929650168181240 ) ) ;
#177 = DIRECTION ( 'NONE',  ( -0.0000000000000000000, -1.000000000000000000, -0.0000000000000000000 ) ) ;
#178 = ORIENTED_EDGE ( 'NONE', *, *, #51, .T. ) ;
#179 = ORIENTED_EDGE ( 'NONE', *, *, #87, .F. ) ;
#180 = CARTESIAN_POINT ( 'NONE',  ( 0.0000000000000000000, 16.09610950492956505, 3.488929650168181240 ) ) ;
#181 = AXIS2_PLACEMENT_3D ( 'NONE', #39, #133, #228 ) ;
#182 = ORIENTED_EDGE ( 'NONE', *, *, #303, .T. ) ;
#183 = DIRECTION ( 'NONE',  ( -0.0000000000000000000, -1.000000000000000000, -0.0000000000000000000 ) ) ;
#184 = ADVANCED_FACE ( 'NONE', ( #66 ), #218, .T. ) ;
#185 = EDGE_LOOP ( 'NONE', ( #249, #301, #110 ) ) ;
#186 = CARTESIAN_POINT ( 'NONE',  ( 1.224646799147352862E-15, 0.0000000000000000000, 9.999999999999996447 ) ) ;
#187 = APPROVAL ( #77, 'BELÝRTÝLMEMÝÞ' ) ;
#188 = DIRECTION ( 'NONE',  ( -0.0000000000000000000, -1.000000000000000000, -0.0000000000000000000 ) ) ;
#189 = DIRECTION ( 'NONE',  ( 0.0000000000000000000, 0.0000000000000000000, -1.000000000000000000 ) ) ;
#190 = CC_DESIGN_APPROVAL ( #46, ( #282 ) ) ;
#191 =( NAMED_UNIT ( * ) PLANE_ANGLE_UNIT ( ) SI_UNIT ( $, .RADIAN. ) );
#192 = CARTESIAN_POINT ( 'NONE',  ( 0.0000000000000000000, 0.0000000000000000000, 0.0000000000000000000 ) ) ;
#193 = CALENDAR_DATE ( 2019, 16, 12 ) ;
#194 = VECTOR ( 'NONE', #9, 1000.000000000000000 ) ;
#195 = CALENDAR_DATE ( 2019, 16, 12 ) ;
#196 = DATE_TIME_ROLE ( 'classification_date' ) ;
#197 = CC_DESIGN_PERSON_AND_ORGANIZATION_ASSIGNMENT ( #141, #238, ( #49 ) ) ;
#198 = FACE_OUTER_BOUND ( 'NONE', #127, .T. ) ;
#199 = APPROVAL_PERSON_ORGANIZATION ( #118, #167, #3 ) ;
#200 = CARTESIAN_POINT ( 'NONE',  ( 0.0000000000000000000, 40.99999999999999289, 0.0000000000000000000 ) ) ;
#201 = EDGE_LOOP ( 'NONE', ( #130, #13, #272 ) ) ;
#202 = ORIENTED_EDGE ( 'NONE', *, *, #237, .F. ) ;
#203 = FACE_OUTER_BOUND ( 'NONE', #91, .T. ) ;
#204 = ADVANCED_FACE ( 'NONE', ( #254 ), #7, .F. ) ;
#205 = CIRCLE ( 'NONE', #31, 6.999999999999995559 ) ;
#206 = ORIENTED_EDGE ( 'NONE', *, *, #291, .T. ) ;
#207 = CARTESIAN_POINT ( 'NONE',  ( 0.0000000000000000000, 16.09610950492956505, 0.0000000000000000000 ) ) ;
#208 = ORIENTED_EDGE ( 'NONE', *, *, #64, .T. ) ;
#209 = DIRECTION ( 'NONE',  ( 0.0000000000000000000, 0.0000000000000000000, -1.000000000000000000 ) ) ;
#210 = CYLINDRICAL_SURFACE ( 'NONE', #232, 6.999999999999999112 ) ;
#211 =( LENGTH_UNIT ( ) NAMED_UNIT ( * ) SI_UNIT ( .MILLI., .METRE. ) );
#212 = ORIENTED_EDGE ( 'NONE', *, *, #37, .F. ) ;
#213 = APPROVAL_STATUS ( 'not_yet_approved' ) ;
#214 = EDGE_CURVE ( 'NONE', #298, #89, #114, .T. ) ;
#215 = APPROVAL_STATUS ( 'not_yet_approved' ) ;
#216 = AXIS2_PLACEMENT_3D ( 'NONE', #44, #162, #245 ) ;
#217 = COORDINATED_UNIVERSAL_TIME_OFFSET ( 3, 0, .AHEAD. ) ;
#218 = TOROIDAL_SURFACE ( 'NONE', #181, -3.488929650168181240, 30.00000000000000711 ) ;
#219 = CARTESIAN_POINT ( 'NONE',  ( 0.0000000000000000000, 0.0000000000000000000, -6.999999999999999112 ) ) ;
#220 = DIRECTION ( 'NONE',  ( -0.0000000000000000000, -1.000000000000000000, -0.0000000000000000000 ) ) ;
#221 = CARTESIAN_POINT ( 'NONE',  ( 0.0000000000000000000, 0.0000000000000000000, 0.0000000000000000000 ) ) ;
#222 = VERTEX_POINT ( 'NONE', #68 ) ;
#223 = LOCAL_TIME ( 14, 41, 6.000000000000000000, #217 ) ;
#224 = EDGE_CURVE ( 'NONE', #225, #227, #104, .T. ) ;
#225 = VERTEX_POINT ( 'NONE', #135 ) ;
#226 = CARTESIAN_POINT ( 'NONE',  ( 0.0000000000000000000, 16.09610950492956505, 0.0000000000000000000 ) ) ;
#227 = VERTEX_POINT ( 'NONE', #230 ) ;
#228 = DIRECTION ( 'NONE',  ( 0.0000000000000000000, 0.0000000000000000000, -1.000000000000000000 ) ) ;
#229 = CLOSED_SHELL ( 'NONE', ( #159, #8, #96, #117, #283, #267, #174, #184, #204 ) ) ;
#230 = CARTESIAN_POINT ( 'NONE',  ( 8.572527594031470232E-16, 40.99999999999999289, 6.999999999999995559 ) ) ;
#231 = DIRECTION ( 'NONE',  ( 0.0000000000000000000, 0.0000000000000000000, -1.000000000000000000 ) ) ;
#232 = AXIS2_PLACEMENT_3D ( 'NONE', #306, #94, #189 ) ;
#233 = DIRECTION ( 'NONE',  ( -0.0000000000000000000, -1.000000000000000000, -0.0000000000000000000 ) ) ;
#234 = AXIS2_PLACEMENT_3D ( 'NONE', #161, #256, #41 ) ;
#235 = ORIENTED_EDGE ( 'NONE', *, *, #224, .F. ) ;
#236 = APPLICATION_PROTOCOL_DEFINITION ( 'international standard', 'config_control_design', 1994, #275 ) ;
#237 = EDGE_CURVE ( 'NONE', #278, #89, #62, .T. ) ;
#238 = PERSON_AND_ORGANIZATION_ROLE ( 'design_owner' ) ;
#239 = DATE_AND_TIME ( #142, #107 ) ;
#240 = CC_DESIGN_DATE_AND_TIME_ASSIGNMENT ( #239, #25, ( #250 ) ) ;
#241 = SECURITY_CLASSIFICATION_LEVEL ( 'unclassified' ) ;
#242 = APPROVAL_DATE_TIME ( #146, #187 ) ;
#243 = CC_DESIGN_APPROVAL ( #167, ( #250 ) ) ;
#244 = AXIS2_PLACEMENT_3D ( 'NONE', #248, #34, #126 ) ;
#245 = DIRECTION ( 'NONE',  ( 0.0000000000000000000, 0.0000000000000000000, -1.000000000000000000 ) ) ;
#246 = CARTESIAN_POINT ( 'NONE',  ( 0.0000000000000000000, 0.0000000000000000000, -9.999999999999996447 ) ) ;
#247 = DIRECTION ( 'NONE',  ( -0.0000000000000000000, -1.000000000000000000, -0.0000000000000000000 ) ) ;
#248 = CARTESIAN_POINT ( 'NONE',  ( 0.0000000000000000000, 0.0000000000000000000, 0.0000000000000000000 ) ) ;
#249 = ORIENTED_EDGE ( 'NONE', *, *, #64, .F. ) ;
#250 = PRODUCT_DEFINITION ( 'BÝLÝNMEYEN', '', #282, #16 ) ;
#251 = ORIENTED_EDGE ( 'NONE', *, *, #74, .T. ) ;
#252 = FACE_OUTER_BOUND ( 'NONE', #201, .T. ) ;
#253 = VERTEX_POINT ( 'NONE', #304 ) ;
#254 = FACE_OUTER_BOUND ( 'NONE', #158, .T. ) ;
#255 = ORIENTED_EDGE ( 'NONE', *, *, #261, .F. ) ;
#256 = DIRECTION ( 'NONE',  ( 1.000000000000000000, 0.0000000000000000000, -1.224646799147353207E-16 ) ) ;
#257 = DIRECTION ( 'NONE',  ( 0.0000000000000000000, 0.0000000000000000000, -1.000000000000000000 ) ) ;
#258 = CIRCLE ( 'NONE', #80, 30.00000000000000355 ) ;
#259 = PLANE ( 'NONE',  #143 ) ;
#260 = CARTESIAN_POINT ( 'NONE',  ( 1.224646799147352468E-15, 42.89254167215686664, 9.999999999999991118 ) ) ;
#261 = EDGE_CURVE ( 'NONE', #227, #160, #155, .T. ) ;
#262 = AXIS2_PLACEMENT_3D ( 'NONE', #226, #15, #111 ) ;
#263 = PERSON_AND_ORGANIZATION_ROLE ( 'creator' ) ;
#264 = PERSON_AND_ORGANIZATION_ROLE ( 'creator' ) ;
#265 = COORDINATED_UNIVERSAL_TIME_OFFSET ( 3, 0, .AHEAD. ) ;
#266 = LOCAL_TIME ( 14, 41, 6.000000000000000000, #265 ) ;
#267 = ADVANCED_FACE ( 'NONE', ( #69, #164 ), #259, .T. ) ;
#268 = PRODUCT_RELATED_PRODUCT_CATEGORY ( 'detail', '', ( #49 ) ) ;
#269 = DIRECTION ( 'NONE',  ( -1.000000000000000000, 0.0000000000000000000, 0.0000000000000000000 ) ) ;
#270 = DIRECTION ( 'NONE',  ( 0.0000000000000000000, 0.0000000000000000000, -1.000000000000000000 ) ) ;
#271 = ORIENTED_EDGE ( 'NONE', *, *, #123, .F. ) ;
#272 = ORIENTED_EDGE ( 'NONE', *, *, #261, .T. ) ;
#273 = DIRECTION ( 'NONE',  ( -1.000000000000000000, 0.0000000000000000000, 0.0000000000000000000 ) ) ;
#274 = VECTOR ( 'NONE', #279, 1000.000000000000000 ) ;
#275 = APPLICATION_CONTEXT ( 'configuration controlled 3d designs of mechanical parts and assemblies' ) ;
#276 = ORIENTED_EDGE ( 'NONE', *, *, #123, .T. ) ;
#277 = DIRECTION ( 'NONE',  ( 0.0000000000000000000, 0.0000000000000000000, -1.000000000000000000 ) ) ;
#278 = VERTEX_POINT ( 'NONE', #20 ) ;
#279 = DIRECTION ( 'NONE',  ( -0.0000000000000000000, -1.000000000000000000, -0.0000000000000000000 ) ) ;
#280 = DIRECTION ( 'NONE',  ( 0.0000000000000000000, 0.0000000000000000000, -1.000000000000000000 ) ) ;
#281 = CARTESIAN_POINT ( 'NONE',  ( 0.0000000000000000000, 0.0000000000000000000, 0.0000000000000000000 ) ) ;
#282 = PRODUCT_DEFINITION_FORMATION_WITH_SPECIFIED_SOURCE ( 'HERHANGÝ', '', #49, .NOT_KNOWN. ) ;
#283 = ADVANCED_FACE ( 'NONE', ( #116 ), #210, .F. ) ;
#284 = DIRECTION ( 'NONE',  ( 0.0000000000000000000, 0.0000000000000000000, 1.000000000000000000 ) ) ;
#285 = AXIS2_PLACEMENT_3D ( 'NONE', #83, #177, #270 ) ;
#286 = DATE_AND_TIME ( #193, #71 ) ;
#287 = DATE_AND_TIME ( #195, #11 ) ;
#288 = PERSON_AND_ORGANIZATION ( #128, #28 ) ;
#289 = CC_DESIGN_DATE_AND_TIME_ASSIGNMENT ( #102, #196, ( #55 ) ) ;
#290 = APPLICATION_CONTEXT ( 'configuration controlled 3d designs of mechanical parts and assemblies' ) ;
#291 = EDGE_CURVE ( 'NONE', #89, #278, #105, .T. ) ;
#292 = CIRCLE ( 'NONE', #120, 9.999999999999991118 ) ;
#293 = CC_DESIGN_PERSON_AND_ORGANIZATION_ASSIGNMENT ( #53, #144, ( #282 ) ) ;
#294 = CYLINDRICAL_SURFACE ( 'NONE', #285, 9.999999999999996447 ) ;
#295 = FACE_OUTER_BOUND ( 'NONE', #185, .T. ) ;
#296 = ORIENTED_EDGE ( 'NONE', *, *, #74, .F. ) ;
#297 = DIRECTION ( 'NONE',  ( -0.0000000000000000000, -1.000000000000000000, -0.0000000000000000000 ) ) ;
#298 = VERTEX_POINT ( 'NONE', #260 ) ;
#299 = CYLINDRICAL_SURFACE ( 'NONE', #50, 9.999999999999996447 ) ;
#300 = AXIS2_PLACEMENT_3D ( 'NONE', #180, #273, #63 ) ;
#301 = ORIENTED_EDGE ( 'NONE', *, *, #37, .T. ) ;
#302 = DIRECTION ( 'NONE',  ( -0.0000000000000000000, -1.000000000000000000, -0.0000000000000000000 ) ) ;
#303 = EDGE_CURVE ( 'NONE', #227, #154, #48, .T. ) ;
#304 = CARTESIAN_POINT ( 'NONE',  ( 0.0000000000000000000, 0.0000000000000000000, -7.000000000000002665 ) ) ;
#305 = DIRECTION ( 'NONE',  ( -1.224646799147353207E-16, 0.0000000000000000000, -1.000000000000000000 ) ) ;
#306 = CARTESIAN_POINT ( 'NONE',  ( 0.0000000000000000000, 0.0000000000000000000, 0.0000000000000000000 ) ) ;
#307 = CC_DESIGN_PERSON_AND_ORGANIZATION_ASSIGNMENT ( #171, #263, ( #250 ) ) ;
ENDSEC;
END-ISO-10303-21;
